ISO-10303-21;
HEADER;
/* Generated by software containing ST-Developer
 * from STEP Tools, Inc. (www.steptools.com) 
 */
/* OPTION: using custom renumber hook */

FILE_DESCRIPTION(
/* description */ ('STEP AP242',
'CAx-IF Rec.Pracs.---Representation and Presentation of Product Manufa
cturing Information (PMI)---4.0---2014-10-13',
'CAx-IF Rec.Pracs.---3D Tessellated Geometry---0.4---2014-09-14','2;1'),

/* implementation_level */ '2;1');

FILE_NAME(
/* name */ '6336dffaf64b733695f33247',
/* time_stamp */ '2022-09-30T12:24:27+00:00',
/* author */ (''),
/* organization */ (''),
/* preprocessor_version */ 'ST-DEVELOPER v18.102',
/* originating_system */ '  ',
/* authorisation */ '  ');

FILE_SCHEMA (('AP242_MANAGED_MODEL_BASED_3D_ENGINEERING_MIM_LF { 1 0 10303 442 1 1 4 }'));
ENDSEC;

DATA;
#10=SHAPE_REPRESENTATION_RELATIONSHIP('','',#170,#11);
#11=ADVANCED_BREP_SHAPE_REPRESENTATION('',(#168),#292);
#12=B_SPLINE_SURFACE_WITH_KNOTS('',3,1,((#226,#227),(#228,#229),(#230,#231),
(#232,#233)),.SURF_OF_LINEAR_EXTRUSION.,.F.,.F.,.F.,(4,4),(2,2),(0.,1.),
(0.,1.),.PIECEWISE_BEZIER_KNOTS.);
#13=B_SPLINE_SURFACE_WITH_KNOTS('',3,1,((#241,#242),(#243,#244),(#245,#246),
(#247,#248)),.SURF_OF_LINEAR_EXTRUSION.,.F.,.F.,.F.,(4,4),(2,2),(0.,1.),
(0.,1.),.PIECEWISE_BEZIER_KNOTS.);
#14=B_SPLINE_SURFACE_WITH_KNOTS('',3,1,((#254,#255),(#256,#257),(#258,#259),
(#260,#261)),.SURF_OF_LINEAR_EXTRUSION.,.F.,.F.,.F.,(4,4),(2,2),(0.,1.),
(0.,1.),.PIECEWISE_BEZIER_KNOTS.);
#15=B_SPLINE_SURFACE_WITH_KNOTS('',3,1,((#267,#268),(#269,#270),(#271,#272),
(#273,#274)),.SURF_OF_LINEAR_EXTRUSION.,.F.,.F.,.F.,(4,4),(2,2),(0.,1.),
(0.,1.),.PIECEWISE_BEZIER_KNOTS.);
#16=B_SPLINE_CURVE_WITH_KNOTS('',2,(#211,#212,#213),.UNSPECIFIED.,.F.,.F.,
(3,3),(0.,1.),.PIECEWISE_BEZIER_KNOTS.);
#17=B_SPLINE_CURVE_WITH_KNOTS('',2,(#215,#216,#217),.UNSPECIFIED.,.F.,.F.,
(3,3),(0.,1.),.PIECEWISE_BEZIER_KNOTS.);
#18=B_SPLINE_CURVE_WITH_KNOTS('',2,(#219,#220,#221),.UNSPECIFIED.,.F.,.F.,
(3,3),(0.,1.),.PIECEWISE_BEZIER_KNOTS.);
#19=B_SPLINE_CURVE_WITH_KNOTS('',2,(#223,#224,#225),.UNSPECIFIED.,.F.,.F.,
(3,3),(0.,1.),.PIECEWISE_BEZIER_KNOTS.);
#20=B_SPLINE_CURVE_WITH_KNOTS('',2,(#236,#237,#238),.UNSPECIFIED.,.F.,.F.,
(3,3),(0.,1.),.PIECEWISE_BEZIER_KNOTS.);
#21=B_SPLINE_CURVE_WITH_KNOTS('',2,(#251,#252,#253),.UNSPECIFIED.,.F.,.F.,
(3,3),(0.,1.),.PIECEWISE_BEZIER_KNOTS.);
#22=B_SPLINE_CURVE_WITH_KNOTS('',2,(#264,#265,#266),.UNSPECIFIED.,.F.,.F.,
(3,3),(0.,1.),.PIECEWISE_BEZIER_KNOTS.);
#23=B_SPLINE_CURVE_WITH_KNOTS('',2,(#277,#278,#279),.UNSPECIFIED.,.F.,.F.,
(3,3),(0.,1.),.PIECEWISE_BEZIER_KNOTS.);
#24=ORIENTED_EDGE('',*,*,#66,.F.);
#25=ORIENTED_EDGE('',*,*,#67,.F.);
#26=ORIENTED_EDGE('',*,*,#68,.F.);
#27=ORIENTED_EDGE('',*,*,#69,.F.);
#28=ORIENTED_EDGE('',*,*,#70,.F.);
#29=ORIENTED_EDGE('',*,*,#71,.F.);
#30=ORIENTED_EDGE('',*,*,#72,.F.);
#31=ORIENTED_EDGE('',*,*,#72,.T.);
#32=ORIENTED_EDGE('',*,*,#73,.T.);
#33=ORIENTED_EDGE('',*,*,#74,.F.);
#34=ORIENTED_EDGE('',*,*,#75,.F.);
#35=ORIENTED_EDGE('',*,*,#71,.T.);
#36=ORIENTED_EDGE('',*,*,#76,.T.);
#37=ORIENTED_EDGE('',*,*,#77,.F.);
#38=ORIENTED_EDGE('',*,*,#73,.F.);
#39=ORIENTED_EDGE('',*,*,#70,.T.);
#40=ORIENTED_EDGE('',*,*,#78,.T.);
#41=ORIENTED_EDGE('',*,*,#79,.F.);
#42=ORIENTED_EDGE('',*,*,#76,.F.);
#43=ORIENTED_EDGE('',*,*,#69,.T.);
#44=ORIENTED_EDGE('',*,*,#80,.T.);
#45=ORIENTED_EDGE('',*,*,#81,.F.);
#46=ORIENTED_EDGE('',*,*,#78,.F.);
#47=ORIENTED_EDGE('',*,*,#68,.T.);
#48=ORIENTED_EDGE('',*,*,#82,.T.);
#49=ORIENTED_EDGE('',*,*,#83,.F.);
#50=ORIENTED_EDGE('',*,*,#80,.F.);
#51=ORIENTED_EDGE('',*,*,#67,.T.);
#52=ORIENTED_EDGE('',*,*,#84,.T.);
#53=ORIENTED_EDGE('',*,*,#85,.F.);
#54=ORIENTED_EDGE('',*,*,#82,.F.);
#55=ORIENTED_EDGE('',*,*,#66,.T.);
#56=ORIENTED_EDGE('',*,*,#75,.T.);
#57=ORIENTED_EDGE('',*,*,#86,.F.);
#58=ORIENTED_EDGE('',*,*,#84,.F.);
#59=ORIENTED_EDGE('',*,*,#85,.T.);
#60=ORIENTED_EDGE('',*,*,#86,.T.);
#61=ORIENTED_EDGE('',*,*,#74,.T.);
#62=ORIENTED_EDGE('',*,*,#77,.T.);
#63=ORIENTED_EDGE('',*,*,#79,.T.);
#64=ORIENTED_EDGE('',*,*,#81,.T.);
#65=ORIENTED_EDGE('',*,*,#83,.T.);
#66=EDGE_CURVE('',#87,#88,#101,.T.);
#67=EDGE_CURVE('',#89,#87,#102,.T.);
#68=EDGE_CURVE('',#90,#89,#103,.T.);
#69=EDGE_CURVE('',#91,#90,#16,.T.);
#70=EDGE_CURVE('',#92,#91,#17,.T.);
#71=EDGE_CURVE('',#93,#92,#18,.T.);
#72=EDGE_CURVE('',#88,#93,#19,.T.);
#73=EDGE_CURVE('',#93,#94,#104,.T.);
#74=EDGE_CURVE('',#95,#94,#20,.T.);
#75=EDGE_CURVE('',#88,#95,#105,.T.);
#76=EDGE_CURVE('',#92,#96,#106,.T.);
#77=EDGE_CURVE('',#94,#96,#21,.T.);
#78=EDGE_CURVE('',#91,#97,#107,.T.);
#79=EDGE_CURVE('',#96,#97,#22,.T.);
#80=EDGE_CURVE('',#90,#98,#108,.T.);
#81=EDGE_CURVE('',#97,#98,#23,.T.);
#82=EDGE_CURVE('',#89,#99,#109,.T.);
#83=EDGE_CURVE('',#98,#99,#110,.T.);
#84=EDGE_CURVE('',#87,#100,#111,.T.);
#85=EDGE_CURVE('',#99,#100,#112,.T.);
#86=EDGE_CURVE('',#100,#95,#113,.T.);
#87=VERTEX_POINT('',#205);
#88=VERTEX_POINT('',#206);
#89=VERTEX_POINT('',#208);
#90=VERTEX_POINT('',#210);
#91=VERTEX_POINT('',#214);
#92=VERTEX_POINT('',#218);
#93=VERTEX_POINT('',#222);
#94=VERTEX_POINT('',#235);
#95=VERTEX_POINT('',#239);
#96=VERTEX_POINT('',#250);
#97=VERTEX_POINT('',#263);
#98=VERTEX_POINT('',#276);
#99=VERTEX_POINT('',#282);
#100=VERTEX_POINT('',#286);
#101=LINE('',#204,#114);
#102=LINE('',#207,#115);
#103=LINE('',#209,#116);
#104=LINE('',#234,#117);
#105=LINE('',#240,#118);
#106=LINE('',#249,#119);
#107=LINE('',#262,#120);
#108=LINE('',#275,#121);
#109=LINE('',#281,#122);
#110=LINE('',#283,#123);
#111=LINE('',#285,#124);
#112=LINE('',#287,#125);
#113=LINE('',#289,#126);
#114=VECTOR('',#181,1.);
#115=VECTOR('',#182,1.);
#116=VECTOR('',#183,1.);
#117=VECTOR('',#184,1.);
#118=VECTOR('',#185,1.);
#119=VECTOR('',#186,1.);
#120=VECTOR('',#187,1.);
#121=VECTOR('',#188,1.);
#122=VECTOR('',#191,1.);
#123=VECTOR('',#192,1.);
#124=VECTOR('',#195,1.);
#125=VECTOR('',#196,1.);
#126=VECTOR('',#199,1.);
#127=EDGE_LOOP('',(#24,#25,#26,#27,#28,#29,#30));
#128=EDGE_LOOP('',(#31,#32,#33,#34));
#129=EDGE_LOOP('',(#35,#36,#37,#38));
#130=EDGE_LOOP('',(#39,#40,#41,#42));
#131=EDGE_LOOP('',(#43,#44,#45,#46));
#132=EDGE_LOOP('',(#47,#48,#49,#50));
#133=EDGE_LOOP('',(#51,#52,#53,#54));
#134=EDGE_LOOP('',(#55,#56,#57,#58));
#135=EDGE_LOOP('',(#59,#60,#61,#62,#63,#64,#65));
#136=FACE_BOUND('',#127,.T.);
#137=FACE_BOUND('',#128,.T.);
#138=FACE_BOUND('',#129,.T.);
#139=FACE_BOUND('',#130,.T.);
#140=FACE_BOUND('',#131,.T.);
#141=FACE_BOUND('',#132,.T.);
#142=FACE_BOUND('',#133,.T.);
#143=FACE_BOUND('',#134,.T.);
#144=FACE_BOUND('',#135,.T.);
#145=PLANE('',#172);
#146=PLANE('',#173);
#147=PLANE('',#174);
#148=PLANE('',#175);
#149=PLANE('',#176);
#150=ADVANCED_FACE('',(#136),#145,.F.);
#151=ADVANCED_FACE('',(#137),#12,.T.);
#152=ADVANCED_FACE('',(#138),#13,.T.);
#153=ADVANCED_FACE('',(#139),#14,.T.);
#154=ADVANCED_FACE('',(#140),#15,.T.);
#155=ADVANCED_FACE('',(#141),#146,.T.);
#156=ADVANCED_FACE('',(#142),#147,.T.);
#157=ADVANCED_FACE('',(#143),#148,.T.);
#158=ADVANCED_FACE('',(#144),#149,.T.);
#159=CLOSED_SHELL('',(#150,#151,#152,#153,#154,#155,#156,#157,#158));
#160=STYLED_ITEM('',(#161),#168);
#161=PRESENTATION_STYLE_ASSIGNMENT((#162));
#162=SURFACE_STYLE_USAGE(.BOTH.,#163);
#163=SURFACE_SIDE_STYLE('',(#164));
#164=SURFACE_STYLE_FILL_AREA(#165);
#165=FILL_AREA_STYLE('',(#166));
#166=FILL_AREA_STYLE_COLOUR('',#167);
#167=COLOUR_RGB('',0.498039215686275,0.498039215686275,0.498039215686275);
#168=MANIFOLD_SOLID_BREP('Mobo Lid',#159);
#169=SHAPE_DEFINITION_REPRESENTATION(#297,#170);
#170=SHAPE_REPRESENTATION('Mobo Lid',(#171),#292);
#171=AXIS2_PLACEMENT_3D('',#202,#177,#178);
#172=AXIS2_PLACEMENT_3D('',#203,#179,#180);
#173=AXIS2_PLACEMENT_3D('',#280,#189,#190);
#174=AXIS2_PLACEMENT_3D('',#284,#193,#194);
#175=AXIS2_PLACEMENT_3D('',#288,#197,#198);
#176=AXIS2_PLACEMENT_3D('',#290,#200,#201);
#177=DIRECTION('',(0.,0.,1.));
#178=DIRECTION('',(1.,0.,0.));
#179=DIRECTION('',(7.2462382830248E-18,1.,8.32667268468867E-17));
#180=DIRECTION('',(-1.,7.2462382830248E-18,6.03370543780079E-34));
#181=DIRECTION('',(6.03370543780079E-34,8.32667268468867E-17,-1.));
#182=DIRECTION('',(1.,-7.2462382830248E-18,-6.03370543780079E-34));
#183=DIRECTION('',(-6.03370543780079E-34,-8.32667268468867E-17,1.));
#184=DIRECTION('',(7.2462382830248E-18,1.,8.32667268468867E-17));
#185=DIRECTION('',(7.2462382830248E-18,1.,8.32667268468867E-17));
#186=DIRECTION('',(7.2462382830248E-18,1.,8.32667268468867E-17));
#187=DIRECTION('',(7.2462382830248E-18,1.,8.32667268468867E-17));
#188=DIRECTION('',(7.2462382830248E-18,1.,8.32667268468867E-17));
#189=DIRECTION('',(-1.,7.2462382830248E-18,-1.06910588403688E-49));
#190=DIRECTION('',(-7.2462382830248E-18,-1.,0.));
#191=DIRECTION('',(7.2462382830248E-18,1.,8.32667268468867E-17));
#192=DIRECTION('',(-6.03370543780079E-34,-8.32667268468867E-17,1.));
#193=DIRECTION('',(1.06910588403688E-49,-8.32667268468867E-17,1.));
#194=DIRECTION('',(0.,-1.,-8.32667268468867E-17));
#195=DIRECTION('',(7.2462382830248E-18,1.,8.32667268468867E-17));
#196=DIRECTION('',(1.,-7.2462382830248E-18,-6.03370543780079E-34));
#197=DIRECTION('',(1.,-7.2462382830248E-18,1.06910588403688E-49));
#198=DIRECTION('',(7.2462382830248E-18,1.,0.));
#199=DIRECTION('',(6.03370543780079E-34,8.32667268468867E-17,-1.));
#200=DIRECTION('',(7.2462382830248E-18,1.,8.32667268468867E-17));
#201=DIRECTION('',(-1.,7.2462382830248E-18,6.03370543780079E-34));
#202=CARTESIAN_POINT('',(0.,0.,0.));
#203=CARTESIAN_POINT('',(-0.01251,0.017,0.0014));
#204=CARTESIAN_POINT('',(-0.0608371767810026,0.017,0.0014));
#205=CARTESIAN_POINT('',(-0.0608371767810026,0.017,0.0364126429199648));
#206=CARTESIAN_POINT('',(-0.0608371767810026,0.017,0.034678364116095));
#207=CARTESIAN_POINT('',(-0.01251,0.017,0.0364126429199648));
#208=CARTESIAN_POINT('',(-0.0644184212840809,0.017,0.0364126429199648));
#209=CARTESIAN_POINT('',(-0.0644184212840809,0.017,0.0014));
#210=CARTESIAN_POINT('',(-0.0644184212840809,0.017,0.0346343887423043));
#211=CARTESIAN_POINT('',(-0.0639154529463501,0.017,0.0331007475813545));
#212=CARTESIAN_POINT('',(-0.0644184212840809,0.017,0.0336202066842569));
#213=CARTESIAN_POINT('',(-0.0644184212840809,0.017,0.0346343887423043));
#214=CARTESIAN_POINT('',(-0.0639154529463501,0.017,0.0331007475813545));
#215=CARTESIAN_POINT('',(-0.0625714555848725,0.017,0.032581288478452));
#216=CARTESIAN_POINT('',(-0.0634124846086192,0.017,0.032581288478452));
#217=CARTESIAN_POINT('',(-0.0639154529463501,0.017,0.0331007475813545));
#218=CARTESIAN_POINT('',(-0.0625714555848725,0.017,0.032581288478452));
#219=CARTESIAN_POINT('',(-0.0612838016710642,0.017,0.0331062445030783));
#220=CARTESIAN_POINT('',(-0.0617304265611258,0.017,0.032581288478452));
#221=CARTESIAN_POINT('',(-0.0625714555848725,0.017,0.032581288478452));
#222=CARTESIAN_POINT('',(-0.0612838016710642,0.017,0.0331062445030783));
#223=CARTESIAN_POINT('',(-0.0608371767810026,0.017,0.034678364116095));
#224=CARTESIAN_POINT('',(-0.0608371767810026,0.017,0.0336312005277045));
#225=CARTESIAN_POINT('',(-0.0612838016710642,0.017,0.0331062445030783));
#226=CARTESIAN_POINT('',(-0.0608371767810026,0.017,0.034678364116095));
#227=CARTESIAN_POINT('',(-0.0608371767810026,0.02,0.034678364116095));
#228=CARTESIAN_POINT('',(-0.0608371767810026,0.017,0.033980255057168));
#229=CARTESIAN_POINT('',(-0.0608371767810026,0.02,0.033980255057168));
#230=CARTESIAN_POINT('',(-0.0609860517443565,0.017,0.0334562151861624));
#231=CARTESIAN_POINT('',(-0.0609860517443565,0.02,0.0334562151861624));
#232=CARTESIAN_POINT('',(-0.0612838016710642,0.017,0.0331062445030783));
#233=CARTESIAN_POINT('',(-0.0612838016710642,0.02,0.0331062445030783));
#234=CARTESIAN_POINT('',(-0.0612838016710642,-0.005,0.0331062445030783));
#235=CARTESIAN_POINT('',(-0.0612838016710642,0.02,0.0331062445030783));
#236=CARTESIAN_POINT('',(-0.0608371767810026,0.02,0.034678364116095));
#237=CARTESIAN_POINT('',(-0.0608371767810026,0.02,0.0336312005277045));
#238=CARTESIAN_POINT('',(-0.0612838016710642,0.02,0.0331062445030783));
#239=CARTESIAN_POINT('',(-0.0608371767810026,0.02,0.034678364116095));
#240=CARTESIAN_POINT('',(-0.0608371767810026,-0.005,0.034678364116095));
#241=CARTESIAN_POINT('',(-0.0612838016710642,0.017,0.0331062445030783));
#242=CARTESIAN_POINT('',(-0.0612838016710642,0.02,0.0331062445030783));
#243=CARTESIAN_POINT('',(-0.0615815515977719,0.017,0.0327562738199941));
#244=CARTESIAN_POINT('',(-0.0615815515977719,0.02,0.0327562738199941));
#245=CARTESIAN_POINT('',(-0.0620107695690414,0.017,0.032581288478452));
#246=CARTESIAN_POINT('',(-0.0620107695690414,0.02,0.032581288478452));
#247=CARTESIAN_POINT('',(-0.0625714555848725,0.017,0.032581288478452));
#248=CARTESIAN_POINT('',(-0.0625714555848725,0.02,0.032581288478452));
#249=CARTESIAN_POINT('',(-0.0625714555848725,-0.005,0.032581288478452));
#250=CARTESIAN_POINT('',(-0.0625714555848725,0.02,0.032581288478452));
#251=CARTESIAN_POINT('',(-0.0612838016710642,0.02,0.0331062445030783));
#252=CARTESIAN_POINT('',(-0.0617304265611258,0.02,0.032581288478452));
#253=CARTESIAN_POINT('',(-0.0625714555848725,0.02,0.032581288478452));
#254=CARTESIAN_POINT('',(-0.0625714555848725,0.017,0.032581288478452));
#255=CARTESIAN_POINT('',(-0.0625714555848725,0.02,0.032581288478452));
#256=CARTESIAN_POINT('',(-0.0631321416007036,0.017,0.032581288478452));
#257=CARTESIAN_POINT('',(-0.0631321416007036,0.02,0.032581288478452));
#258=CARTESIAN_POINT('',(-0.0635801407211962,0.017,0.0327544415127528));
#259=CARTESIAN_POINT('',(-0.0635801407211962,0.02,0.0327544415127528));
#260=CARTESIAN_POINT('',(-0.0639154529463501,0.017,0.0331007475813545));
#261=CARTESIAN_POINT('',(-0.0639154529463501,0.02,0.0331007475813545));
#262=CARTESIAN_POINT('',(-0.0639154529463501,-0.005,0.0331007475813545));
#263=CARTESIAN_POINT('',(-0.0639154529463501,0.02,0.0331007475813545));
#264=CARTESIAN_POINT('',(-0.0625714555848725,0.02,0.032581288478452));
#265=CARTESIAN_POINT('',(-0.0634124846086192,0.02,0.032581288478452));
#266=CARTESIAN_POINT('',(-0.0639154529463501,0.02,0.0331007475813545));
#267=CARTESIAN_POINT('',(-0.0639154529463501,0.017,0.0331007475813545));
#268=CARTESIAN_POINT('',(-0.0639154529463501,0.02,0.0331007475813545));
#269=CARTESIAN_POINT('',(-0.064250765171504,0.017,0.0334470536499561));
#270=CARTESIAN_POINT('',(-0.064250765171504,0.02,0.0334470536499561));
#271=CARTESIAN_POINT('',(-0.0644184212840809,0.017,0.0339582673702727));
#272=CARTESIAN_POINT('',(-0.0644184212840809,0.02,0.0339582673702727));
#273=CARTESIAN_POINT('',(-0.0644184212840809,0.017,0.0346343887423043));
#274=CARTESIAN_POINT('',(-0.0644184212840809,0.02,0.0346343887423043));
#275=CARTESIAN_POINT('',(-0.0644184212840809,-0.005,0.0346343887423043));
#276=CARTESIAN_POINT('',(-0.0644184212840809,0.02,0.0346343887423043));
#277=CARTESIAN_POINT('',(-0.0639154529463501,0.02,0.0331007475813545));
#278=CARTESIAN_POINT('',(-0.0644184212840809,0.02,0.0336202066842569));
#279=CARTESIAN_POINT('',(-0.0644184212840809,0.02,0.0346343887423043));
#280=CARTESIAN_POINT('',(-0.0644184212840809,-0.005,0.0355235158311346));
#281=CARTESIAN_POINT('',(-0.0644184212840809,-0.005,0.0364126429199648));
#282=CARTESIAN_POINT('',(-0.0644184212840809,0.02,0.0364126429199648));
#283=CARTESIAN_POINT('',(-0.0644184212840809,0.02,0.0355235158311346));
#284=CARTESIAN_POINT('',(-0.0626277990325418,-0.005,0.0364126429199648));
#285=CARTESIAN_POINT('',(-0.0608371767810026,-0.005,0.0364126429199648));
#286=CARTESIAN_POINT('',(-0.0608371767810026,0.02,0.0364126429199648));
#287=CARTESIAN_POINT('',(-0.0626277990325418,0.02,0.0364126429199648));
#288=CARTESIAN_POINT('',(-0.0608371767810026,-0.005,0.0355455035180299));
#289=CARTESIAN_POINT('',(-0.0608371767810026,0.02,0.0355455035180299));
#290=CARTESIAN_POINT('',(-0.01251,0.02,0.0014));
#291=MECHANICAL_DESIGN_GEOMETRIC_PRESENTATION_REPRESENTATION('',(#160),
#292);
#292=(
GEOMETRIC_REPRESENTATION_CONTEXT(3)
GLOBAL_UNCERTAINTY_ASSIGNED_CONTEXT((#293))
GLOBAL_UNIT_ASSIGNED_CONTEXT((#296,#295,#294))
REPRESENTATION_CONTEXT('Mobo Lid','TOP_LEVEL_ASSEMBLY_PART')
);
#293=UNCERTAINTY_MEASURE_WITH_UNIT(LENGTH_MEASURE(5.E-6),#296,
'DISTANCE_ACCURACY_VALUE','Maximum Tolerance applied to model');
#294=(
NAMED_UNIT(*)
SI_UNIT($,.STERADIAN.)
SOLID_ANGLE_UNIT()
);
#295=(
NAMED_UNIT(*)
PLANE_ANGLE_UNIT()
SI_UNIT($,.RADIAN.)
);
#296=(
LENGTH_UNIT()
NAMED_UNIT(*)
SI_UNIT($,.METRE.)
);
#297=PRODUCT_DEFINITION_SHAPE('','',#298);
#298=PRODUCT_DEFINITION('','',#300,#299);
#299=PRODUCT_DEFINITION_CONTEXT('',#306,'design');
#300=PRODUCT_DEFINITION_FORMATION_WITH_SPECIFIED_SOURCE('','',#302,
 .NOT_KNOWN.);
#301=PRODUCT_RELATED_PRODUCT_CATEGORY('','',(#302));
#302=PRODUCT('Mobo Lid','Mobo Lid','Mobo Lid',(#304));
#303=PRODUCT_CATEGORY('','');
#304=PRODUCT_CONTEXT('',#306,'mechanical');
#305=APPLICATION_PROTOCOL_DEFINITION('international standard',
'ap242_managed_model_based_3d_engineering',2011,#306);
#306=APPLICATION_CONTEXT('managed model based 3d engineering');
ENDSEC;
END-ISO-10303-21;
